Ознакомьтесь с нашей политикой обработки персональных данных
Комментарии
2010-04-30 в 00:29 

Кобейн на квинтах играл и что

2010-04-30 в 17:43 

Китеж
Трибунал Сыновний расставит все точки и хозяина тюрьмы поставят к стенке
у чуваков справа какие-то хуевые риффы(

2010-05-01 в 01:17 

Misser[S]chmitt
...ДА! И это звучит гордо!
Во-во, второй рифф тоже не шибко крут, и вообще все мы знаем что нет ничего круче:

E-------------------------------------------------------------------------
B-------------------------------------------------------------------------
G------3------5-------------3-----6-----5----------3----5---3---------
D--5---3------5-------5----3-----6-----5-----5----3----5---3-----5---
A--5-------------------5-----------------------5--------------------5---
E-------------------------------------------------------------------------

2010-05-01 в 01:49 

Obsolete [DELETED user]
а кто чуваки справа?

2010-05-01 в 11:57 

Китеж
Трибунал Сыновний расставит все точки и хозяина тюрьмы поставят к стенке
-----0--3--5---0--3--6-5
-----0--3--5---0--3--6-5

2010-05-01 в 11:59 

Китеж
Трибунал Сыновний расставит все точки и хозяина тюрьмы поставят к стенке
Рифы какбе намекают, что внешний облик и количество гэйна нихуя не меняют внутренней сути современных музыкантов

2010-05-03 в 08:48 

vld1984
Шрамы оставив, смерть спрыгула с плеч, так пошутила судьба.
тип ранетки пиздатые?? )))))))))))

2010-05-07 в 14:37 

Шай-Хулуд
Нет ничего невозможного
Не трогайте Найл! У них отличная музыка, да и тексты получше, чем НАСЛАЖДААААЙСЯ!Не кури сигареты, не прогуливай школу, брррр....

   

Сообщество для тех, кто пытается научиться играть на гитаре и для тех, у кого это получается

главная